Kunci Gitar Chord Rancid – Fall Back Dawn


  • fast
  •  
  •  
  •  
  •  
  •  
  • dyasnina scroll
Tempo  

loading...

Lirik Lagu & Chord Rancid – Fall Back Dawn

[Intro] E F#m A E (4x)

[Verse 1]
      E
Don't worry about me I'm gonna make it alright
       F#m
Got my enemies cross haired and in my sight
         A
I take a bad situation gonna make it right
       E
In the shadows of darkness I stand in the light

[Verse 2]
   E
Ya see it's my style and I'll keep true
        F#m
I had a bad year but I got through
          A
I've been knocked out, beat down, black and blue
B
She's not the one coming back for you
B
She's not the one coming back for you

[Chorus]
E               F#m
 If I fall back down
A                         E
You're gonna help me back up again
E               F#m
 If I fall back down
A                  E
You're gonna be my friend

E               F#m
 If I fall back down
A                         E
You're gonna help me back up again
E               F#m
 If I fall back down
A                  E
You're gonna be my friend

[Verse 3]
C#m                             E
 It takes disaster to learn a lesson
B                                        A
 We're gonna make it through the darkest ni-ah-ah-ights
C#m                            E
 Some people pretend to make a reason
B                               A
 But that one make everything alri-ah-ah-ight

[Solo 1]
e-------------------------------------|
B-9-999-10--9-999-10--9-999-10--9~----|
G-9-999-11--9-999-11--9-999-11--9~----|
D-------------------------------------|
A-------------------------------------|
E-------------------------------------|

e-------------------------------------|
B-9-999-10-12-121212-10-12--10-10-9~--|
G-9-999-11-13-131313-11-13--11-11-9~--|
D-------------------------------------|
A-------------------------------------|
E-------------------------------------|

e--------------------------------------------------|
B-1414-1212-10-12-1010-9--1414-14/12-1010-9-999-99-|
G-1414-1313-11-13-1111-9--1414-14/13-1111-9-999-99-|
D--------------------------------------------------|
A--------------------------------------------------|
E--------------------------------------------------|

e-----------------------------------------------------------|
B-9-999-10--9-999-10-12-121212-10-10-9-999-99~ Sing Verse 4-|
G-9-999-11--9-999-11-13-131313-11-11-9-999-99~ on last 2----|
D-----------------------------------------------------------|
A-----------------------------------------------------------|
E-----------------------------------------------------------|

[Verse 4]
         E
Well the rest of times they don't faze me
F#m
Even if I look and act pretty crazy
A
On my way down she betrayed me
E
Now my vision is no longer hazy

[Verse 5]
    E
See I'm very lucky to have my crew
F#m
They stood by me when she flew
     A
I've been knocked out, beat down, black and blue
B
She's not the one coming back for you
B
She's not the one coming back for you

[Chorus]
E               F#m
 If I fall back down
A                         E
You're gonna help me back up again
E               F#m
 If I fall back down
A                  E
You're gonna be my friend
http://www.chordindonesia.com/chord-rancid-fall-back-dawn
E               F#m
 If I fall back down
A                         E
You're gonna help me back up again
E               F#m
 If I fall back down
A                  E
You're gonna be my friend

[Solo 2]
e----------------------------------|
B----------------------------------|
G----------------------------------|
D----------------------------------|
A-7p6h7p6h7~--9-7-6-7~--9-77/6~----|
E----------------------------------|

e----------------------------------|
B----------------------------------|
G----------------------------------|
D----------------------------------|
A-666-6/4~-------------------------|
E----------------------------------|

e----------------------------------|
B----------------------------------|
G----------------------------------|
D----------------------------------|
A-7p6h7p6h7~--9-7-6-7~--9-77/6~----|
E----------------------------------|

e----------------------------------|
B----------------------------------|
G----------------------------------|
D----------------------------------|
A-666-6/4~-------------------------|
E----------------------------------|

[Chorus]
E               F#m
 If I fall back down
A                         E
You're gonna help me back up again
E               F#m
 If I fall back down
A                  E
You're gonna be my friend

E               F#m
 If I fall back down
A                         E
You're gonna help me back up again
E               F#m
 If I fall back down
A                  E
You're gonna be my friend

E               F#m
 If I fall back down
A                         E
You're gonna help me back up again
E               F#m
 If I fall back down
A                  E
You're gonna be my friend

E               F#m
 If I fall back down
A                         E
You're gonna help me back up again
E               F#m
 If I fall back down
A                  E
You're gonna be my friend

E               F#m
 If I fall back down
A                         E
You're gonna help me back up again
E               F#m
 If I fall back down
A                  E
You're gonna be my friend

[Outro]
e---------------------------------------------|
B---12121212121212/10101010101010/9999999~----|
G---13131313131313/11111111111111/9999999~----|
D---------------------------------------------|
A---------------------------------------------|
E---------------------------------------------|

e---------------------------------------------|
B-1212121212121212/10101010101010/9999999~----|
G-1313131313131313/11111111111111/9999999~----|
D---------------------------------------------|
A---------------------------------------------|
E---------------------------------------------|

e-----------------------------------------------------------|
B-1010101010-999-1010101010-999-12121212-1010-9~------------|
G-1111111111-999-1111111111-999-13131313-1010-9~------------|
D-----------------------------------------------------------|
A-----------------------------------------------------------|
E-----------------------------------------------------------|

e---------------------------------------------------------------------|
B-1010101010-999-1010101010101010-999-10-12-1010-9-999-99~------------|
G-1111111111-999-1111111111111111-999-10-13-1010-9-999-99~------------|
D---------------------------------------------------------------------|
A---------------------------------------------------------------------|
E---------------------------------------------------------------------|

loading...

Posted on : by
Related Chords:
  • Sorry, other chord not yet available.

Advertisement